GuitareJazzManouche. com

La foire aux accords

questions existentielles et/ou pointues sur l'harmonie, la main droite, la gauche, partager des plans, etc, etc

Messagepar Spatzo » 23 Août 2008 22:59

Bon retour parmi nous !
Avatar de l’utilisateur
Spatzo
 
Messages: 4342
Inscrit le: 29 Nov 2006 20:08

Messagepar Kataway » 23 Août 2008 23:03

tigibus a écrit:
Montypy a écrit:
tigibus a écrit:
1x124x

tu peux dire comment tu le fais celui-là steup'

Barré avec l'index, majeur et auriculaire. Comme un accord de F7.

j'ai du mal en faisant un barré à étouffer certaines notes et à en faire sonner d'autres clairement. Mais ça viendra sûrement... ou alors c'est un truc de plus que j'ignore :)


Tu ne dois pas faire un barré car la corde de La va sonner...juste l'index sur la grosse corde...ensuite le majeur dans la première case sur la 4è corde, ensuite l'annulaire sur la 3è corde deuxième case et pour finir l'auriculaire sur la 2è corde, 4è case...ça te donne en Fa, en partant de la grosse corde, la tonique, la 7è, la tierce et la 13è pour te donner un très beau F13...

Kataway
Avatar de l’utilisateur
Kataway
 
Messages: 563
Inscrit le: 13 Avr 2006 15:00
Localisation: Cabarete, République Dominicaine

Messagepar Kataway » 23 Août 2008 23:05

Spatzo a écrit:Bon retour parmi nous !


Il m'est arrivé à l'occasion d'aller dans des cafés internet et de lire quelques commentaires mais ouf...ça devenait pénible de tout suivre et de répondre...Je vois donc que le forum existe toujours et semble bien vivant alors qu'on parlait de sa mort il y a environ un an si je me souviens bien...c'est bien tant mieux...

Salut...Kataway
Avatar de l’utilisateur
Kataway
 
Messages: 563
Inscrit le: 13 Avr 2006 15:00
Localisation: Cabarete, République Dominicaine

Messagepar titimaz » 24 Août 2008 15:09

Hello Alain, nous sommes très heureux de te retrouver ici ! :wink:
Là où est la musique, il n'y a pas de place pour le mal.
(Cervantès,Don Quichotte, 1605)
Avatar de l’utilisateur
titimaz
 
Messages: 2420
Inscrit le: 05 Fév 2006 18:35
Localisation: Montpellier (au Nord de...)

Messagepar Kataway » 24 Août 2008 17:11

titimaz a écrit:Hello Alain, nous sommes très heureux de te retrouver ici ! :wink:


Merci...
Avatar de l’utilisateur
Kataway
 
Messages: 563
Inscrit le: 13 Avr 2006 15:00
Localisation: Cabarete, République Dominicaine

Messagepar Rollerpunk » 25 Août 2008 09:20

Kataway a écrit:
tigibus a écrit:
Montypy a écrit:
tigibus a écrit:
1x124x

tu peux dire comment tu le fais celui-là steup'

Barré avec l'index, majeur et auriculaire. Comme un accord de F7.

j'ai du mal en faisant un barré à étouffer certaines notes et à en faire sonner d'autres clairement. Mais ça viendra sûrement... ou alors c'est un truc de plus que j'ignore :)


Tu ne dois pas faire un barré car la corde de La va sonner...juste l'index sur la grosse corde...ensuite le majeur dans la première case sur la 4è corde, ensuite l'annulaire sur la 3è corde deuxième case et pour finir l'auriculaire sur la 2è corde, 4è case...ça te donne en Fa, en partant de la grosse corde, la tonique, la 7è, la tierce et la 13è pour te donner un très beau F13...

Kataway


Salut, l'accord est un F7, pas un F13, si c'est 4ème case corde de Si.
A+
Avatar de l’utilisateur
Rollerpunk
 
Messages: 788
Inscrit le: 28 Nov 2006 20:36
Localisation: Toulouse

Messagepar Kataway » 25 Août 2008 21:36

Rollerpunk a écrit:
Kataway a écrit:
tigibus a écrit:
Montypy a écrit:
tigibus a écrit:
1x124x


Salut, l'accord est un F7, pas un F13, si c'est 4ème case corde de Si.
A+


Franchement...je ne sais pas si c'est ma vue qui baisse mais je corrige une autre fois ma réponse...c'est un F7...le barré se fait à la première case...par contre, joué avec un plectre c'est pas assuré que le sib de la 5è corde ne sera pas joué. Pour ma part, je le joue avec la main droite sans plectre et ça sonne bien...question de pouvoir faciliter le tout pourquoi ne pas le jouer de cette façon...

1-3-x-2-4-x

Kataway
Avatar de l’utilisateur
Kataway
 
Messages: 563
Inscrit le: 13 Avr 2006 15:00
Localisation: Cabarete, République Dominicaine

Messagepar Nath » 02 Sep 2008 07:02

Je joue cet accord comme un F9,ce qui donne une position nettement moins fatigante (surtout en F en haut du manche..) comme suit: xx3243,,sans faire sonner la neuvieme (le G sur la corde E).
Natzl
Nath
 
Messages: 1663
Inscrit le: 15 Déc 2006 14:25

Messagepar dugenou » 09 Sep 2008 11:51

Ah ah ah, notre ami Kataway ramene a nouveau sa science, ca fait plaisir :D
Avatar de l’utilisateur
dugenou
 
Messages: 3979
Inscrit le: 05 Fév 2006 14:33
Localisation: longjumeau

Messagepar Kataway » 25 Sep 2008 21:48

dugenou a écrit:Ah ah ah, notre ami Kataway ramene a nouveau sa science, ca fait plaisir :D


Salut Dugenou...j'y viens un peu plus sporadiquement mais c'est encore plaisant de lire les propos de tous et chacun...

À propos de "genou"...j'aimerais pas trop en recevoir un coup de cette belle rebelle...
http://www.youtube.com/watch?v=F73B_HY7L2k

Elle fait dans le sport extrême...lol...salut...Kataway
Avatar de l’utilisateur
Kataway
 
Messages: 563
Inscrit le: 13 Avr 2006 15:00
Localisation: Cabarete, République Dominicaine

Messagepar zubi » 24 Oct 2008 11:53

plan "mozzarela" de Tchavolo qui vous relève un plat en D7:


------------------------------------------------------------------|
--------7-------8-------5-------6-------3-------4-------2-------3-|
------7-------7-------5-------5-------3-------3-------2-------2---|
----7-------5-------5-------3-------3-------1-------2-------0-----|
------------------------------------------------------------------|
--8-------7-------6-------5-------4-------3-------3-------2-------|

ce qui est cool avec ce genre de truc c'est que ça peut t'amener n'importe où;
d'ailleurs j'avais trouvé un plan similaire y a quelques temps
ex de D-6 à A7


D-6 A/Db A/C G/B G/Bb A7,5#

---------------------------------------------------5-------
--------10-------10-------10----8-------8-----6-------
------10-------9-------9-------7-------7-------6-------
----11-------7-------7-------5-------5---------5-----
-----------------------------------------------------------
--10-------9-------8-------7-------6-------5------

ca doit bien porter un nom un truc comme cà, j'ai aucune idée du pourquoi ça sonne d'ailleurs .... en tout cas avec ce "principe" on doit pouvoir trouver pleins d'autres choses intéressantes ...

c'est fou ca marche aussi en montant:
ex de G à E-7


----------------------------------------------------------------
--------8--------------10----10--------12----- 12-----12---
------7-------------9-------9------- 11-------11-------12---
----5-------------7-------7------- 9---------9----------12---
----------------------------------------------------------------
--7--------------8-------9-------10-------11----------12---


ou de G/B à D

----------------------------------------------------------------
--------8--------------10----8--------8----- --7----5----
------7-------------9-------7------- 7--------6------5------
----5-------------7-------5------- 5---------5-------4------
-------------------------------------------------------5---------
--7--------------8-------7-------6-------5-------------

ou de G/B à D-

-------------------------------------------------------5---------
--------8--------------10----8--------8----- --6----6----
------7-------------9-------7------- 7--------6------7------
----5-------------7-------5------- 5---------5-------7------
-------------------------------------------------------5---------
--7--------------8-------7-------6-------5-------------
J'ai mis toute ma vie pour savoir ce qu'il ne fallait pas jouer.
Dizzy Gillepsie
-----------------------------------------
http://www.myspace.com/samuelzubicaray
Avatar de l’utilisateur
zubi
 
Messages: 2032
Inscrit le: 27 Sep 2006 12:06
Localisation: Rennes

Messagepar Rollerpunk » 24 Oct 2008 13:47

Cool, merci Zubi !
Avatar de l’utilisateur
Rollerpunk
 
Messages: 788
Inscrit le: 28 Nov 2006 20:36
Localisation: Toulouse

Messagepar zubi » 28 Oct 2008 01:51

et c'est pas fini :lol:
voici deux plans extraits de la vidéo postée de Gwen Cahue

en B7 ( contexte mineur)

--14-15-17-15-14-15------14----14-----14------14-----14-----14-----14-----------------
---------------------------16----------------------------------------------------------
--------------------------------------17----16------14------------------------------------
--------------------------------------------------------------17------16-----14----------------
------------------------------------------------------------------------------------
--------------------------------------------------------------------------------------


------14----14-----14-----------------------------------------------------------------------
--------------------------------------------------------------------------------------
--------------------------------------------------------------------------------------
---13-----------------------------------------------------------------------------------
---------15-----14------------------------------------------------------------------------
--------------------------------------------------------------------------------------


bien sur faut laisser sonner le F# aïgue

et de la même video un plan en do:
C E-/B G-/Bb F F- C/G
------------------------------------------------5----------4----------------3--7-8------------
----------8------------8-----------8---------6--6------6---6-----------5------------------------
--------9--9--------9---9-------7--7------5-----5---5------5-------5------------------------------
-----10-----10---9------9----8------8----------------------------5-----------------------------
----------------------------------------------------------------------------------------------
---8------------7----------- 6-----------5----------4-----------3----------------------------
Dernière édition par zubi le 31 Oct 2008 00:30, édité 1 fois au total.
J'ai mis toute ma vie pour savoir ce qu'il ne fallait pas jouer.
Dizzy Gillepsie
-----------------------------------------
http://www.myspace.com/samuelzubicaray
Avatar de l’utilisateur
zubi
 
Messages: 2032
Inscrit le: 27 Sep 2006 12:06
Localisation: Rennes

Messagepar zubi » 31 Oct 2008 00:29

En fait j'ai capté le plan à Tchavolo, ca marche parce que c'est juste un bon vieux cycle de quinte ! Le cycle de la vie tension/résolution

D7/C G/B (approx. G7 ! ) C7/Bb F/A ( F7) ....

Evidemment la descente en basses chromatiques ( C B Bb A ) fait la sauce ,
alors juste un exercice de gymnastique intellectuelle :

est-il possible de faire un cycle de quinte/quarte avec une montée de basses intéressante??

Y aurait-il une âme charitable pour alimenter ce post ?
Je perd trop de temps à trouver seul des plans en accords (dans un contexte mineur)...
Spatzo tu doit bien avoir ca dans ta musette ?

help!

En attendant ZUBI ROCk OFF
J'ai mis toute ma vie pour savoir ce qu'il ne fallait pas jouer.
Dizzy Gillepsie
-----------------------------------------
http://www.myspace.com/samuelzubicaray
Avatar de l’utilisateur
zubi
 
Messages: 2032
Inscrit le: 27 Sep 2006 12:06
Localisation: Rennes

Messagepar AllezAlainRockOn » 16 Nov 2008 23:09

(accords plutôt ouverts) >

___________7_7_7_7__0__0__0__0__0_0_0_0__0_____0_0__0_0__0_0_0__5
_5_5_5_5_5_5_6_7_8_10__9__8__7__6_6_6_3__1_____2_0__0_0__0_5_5__5
_5_5_5_5_5_5_5_5_5__9__9__9__9__9_7_4_4__4_____4_7_11_11_2_6_7__6
_3_4_5_6_7_7_7_7_7_10_10_10_10_10_9_6_2__2_____2_7_12_12_2_7_7__7
_0_0_0_0_0_0_0_0_0__0__0__0__0__0_0_0_0__0__5*_0_7_12_11_0_0_0__0
_5_5_5_5_5_0_0_0_0__0__0__0__0__0_0_0_0__0_____0_0__0__0_0_0_5__0

(une mesure par accord ou autre c'est mieux)

j'ai du mal à poster ici, parce que je plonge en apnée
dans les accords quand je fais ça et ça part tt azimut
et pour noter aprés... bonjour... :?
isn't it :?:
Artisanal mais gratos.
" L' Homme n'est kune rillettes ." ( Alain De Milly: Grand Philosophe et Poète Français )
/\ \_ /\ / /\/---♪-♫♫♪
Avatar de l’utilisateur
AllezAlainRockOn
 
Messages: 13773
Inscrit le: 21 Mars 2007 01:17
Localisation: Milly La Forêt

Messagepar Spatzo » 16 Nov 2008 23:35

je pense que ça serait bien d'écrire les accords avec quickchord c'est propre et on voit tout de suite de quoi il s'agit parce que comme ça j'ai la flemme de suivre ces tabs, j'ai décroché quand Montypy a mis ses longues séquences ... :D

Bien sur il faut avoir un word processor ouvert pour y copier les graphiques faits et uploader le résultat en images après mais c'est nickel ...


http://www.zippybackflash.com/software-quickchord.php


exemple :

Image

non ?
Avatar de l’utilisateur
Spatzo
 
Messages: 4342
Inscrit le: 29 Nov 2006 20:08

Messagepar AllezAlainRockOn » 17 Nov 2008 00:27

Spatzo a écrit:je pense que ça serait bien d'écrire les accords avec quickchord c'est propre et on voit tout de suite de quoi il s'agit parce que comme ça j'ai la flemme de suivre ces tabs, j'ai décroché quand Montypy a mis ses longues séquences ... :D

Bien sur il faut avoir un word processor ouvert pour y copier les graphiques faits et uploader le résultat en images après mais c'est nickel ...


http://www.zippybackflash.com/software-quickchord.php


exemple :

Image

non ?


oué c'est vrai, c'est pas trés convivial comme ça.
J'ai téléchargé le logiciel en question là:

http://www.download.com/3001-2133_4-105 ... 631f11cf61

ton lien m'a fait télècharger "free cleaner antivirus' avec l'appelation quixkchord...étrange... bref...
J'ai testé et je peux conserver l'image (.bmp)
sinon il me faut un hébergeur d'image et je n'ai pas ça:
tu sembes utiliser imageshack.us :?:
la conservation du lien n'est-elle pas limitée dans le temps ?
j'ai pas non plus essayé ça.

word processor ?
un montage sur photoshop en bitmap c'est bon ? :(

En tous cas Spatzo, merci pour toutes tes contributions éclairées, utiles et savantes.
@+
Artisanal mais gratos.
" L' Homme n'est kune rillettes ." ( Alain De Milly: Grand Philosophe et Poète Français )
/\ \_ /\ / /\/---♪-♫♫♪
Avatar de l’utilisateur
AllezAlainRockOn
 
Messages: 13773
Inscrit le: 21 Mars 2007 01:17
Localisation: Milly La Forêt

Messagepar Spatzo » 17 Nov 2008 13:34

Salut !

Oui je me suis sans doute planté sur le lien ...

Moi j'ouvre les deux logiciels QuickChord et Microsoft Word ensemble en partage d'écran et je dessine l'accord sur QuickChord puis je le copie sur Word et quand j'ai fini la séquence je fais une visualisation de l'impression (sans imprimer) et je capture la portion de l'écran dont j'ai besoin avec l'instrument de Windows Vista prévu à cet effet (voir dans les accessoires les ciseaux cerclés de rouge), j'uploade l'image unique ainsi capturée sur imageshack (apparemment ils conservent sans problème ce que tu mets là - je me suis enregistré sur imageshack gratuitement et donc je ne perds pas de temps à retrouver un fichier) et ensuite je linke sur manoucheries.com... c'est plus rapide que ce que l'on peut penser et surtout sur Word copier un accord c'est facile et les mettre en ordre aussi ...

A la fin je sauvegarde la "photo" et le fichier Word aussi comme ça si j'en ai de nouveau besoin au pire j'uploade de nouveau le tout ... mais jusqu'ici je n'en ai pas eu besoin et d'ailleurs j'ai des fichiers sur imageshack depuis plus d'un an donc pas de problème...

Voilà...
Avatar de l’utilisateur
Spatzo
 
Messages: 4342
Inscrit le: 29 Nov 2006 20:08

Messagepar pascal » 17 Nov 2008 13:52

Super :D ça marche vraiment bien ce truc.
Avatar de l’utilisateur
pascal
 
Messages: 2308
Inscrit le: 18 Nov 2007 09:35
Localisation: Phoenix, Arizona

Messagepar AllezAlainRockOn » 17 Nov 2008 20:55

Spatzo a écrit:Salut !

Oui je me suis sans doute planté sur le lien ...

Moi j'ouvre les deux logiciels QuickChord et Microsoft Word ensemble en partage d'écran et je dessine l'accord sur QuickChord puis je le copie sur Word et quand j'ai fini la séquence je fais une visualisation de l'impression (sans imprimer) et je capture la portion de l'écran dont j'ai besoin avec l'instrument de Windows Vista prévu à cet effet (voir dans les accessoires les ciseaux cerclés de rouge), j'uploade l'image unique ainsi capturée sur imageshack (apparemment ils conservent sans problème ce que tu mets là - je me suis enregistré sur imageshack gratuitement et donc je ne perds pas de temps à retrouver un fichier) et ensuite je linke sur manoucheries.com... c'est plus rapide que ce que l'on peut penser et surtout sur Word copier un accord c'est facile et les mettre en ordre aussi ...

A la fin je sauvegarde la "photo" et le fichier Word aussi comme ça si j'en ai de nouveau besoin au pire j'uploade de nouveau le tout ... mais jusqu'ici je n'en ai pas eu besoin et d'ailleurs j'ai des fichiers sur imageshack depuis plus d'un an donc pas de problème...

Voilà...


Ok monseigneur et merci.
C'est pigé.
Artisanal mais gratos.
" L' Homme n'est kune rillettes ." ( Alain De Milly: Grand Philosophe et Poète Français )
/\ \_ /\ / /\/---♪-♫♫♪
Avatar de l’utilisateur
AllezAlainRockOn
 
Messages: 13773
Inscrit le: 21 Mars 2007 01:17
Localisation: Milly La Forêt

PrécédentSuivant

Retour vers Théorie et technique



Qui est en ligne ?

Utilisateur(s) parcourant actuellement ce forum : Aucun utilisateur inscrit et 4 invité(s)