GuitareJazzManouche. com

La foire aux accords

questions existentielles et/ou pointues sur l'harmonie, la main droite, la gauche, partager des plans, etc, etc

Messagepar zubi » 18 Nov 2008 14:50

plan pour aller de E- à D-, décalé deux fois de quarte en quarte
(pour avoir les positions pour chaque cordes servant de basses ( mi la ré) )

E-/G F E-75b A(7)/Db -> D-6

E||---------------------------------------------------|----------10--------------|
B||-----------5-------6-----------8-------------10-|----------10--------------|
G||---------4-------5-----------7-------------9----|-------10-----------------|
D||-------2-------3-----------5-------------7------|-----9--------------------|
A||--------------------------------------------------|--------------------------|
E||--3----------5-------6-----------9--------------|--10----------------------|

A-/C Bb A-75b D(7)/Gb -> G-13
-----------5--------6-----------8--------------10-|---12-----
---------5--------6-----------8-------------10----|---11------
-------2--------3-----------5-------------7-------|--------
----------------------------------------------------|---12-----
--3----------5--------6-----------9---------------|---10-----
----------------------------------------------------|--------


et D-/F ... -> C-
|--------1-------3-------4-------7--------8-|
|------3-------4-------6-------8--------8---|
|----2-------3-------5-------7--------8-----|
|--3-------5-------6-------9-------10-------|
|----------------------------------------------|
|----------------------------------------------|

Z \_\ |3 I rocks on
J'ai mis toute ma vie pour savoir ce qu'il ne fallait pas jouer.
Dizzy Gillepsie
-----------------------------------------
http://www.myspace.com/samuelzubicaray
Avatar de l’utilisateur
zubi
 
Messages: 2032
Inscrit le: 27 Sep 2006 12:06
Localisation: Rennes

Messagepar guelda » 19 Déc 2008 13:33

Ca a l'air sympa comme programme, merci Spatzo. T'entends pas Zubi ou quoi, on veut
plus de tes fichiers texte merdiques ! :lol: :wink:
Avatar de l’utilisateur
guelda
 
Messages: 1519
Inscrit le: 15 Fév 2006 15:51
Localisation: Paname

Messagepar zubi » 19 Déc 2008 17:28

ok Guelda , à une condition !
tu postes de tes petits trésors ici ;-) !
J'ai mis toute ma vie pour savoir ce qu'il ne fallait pas jouer.
Dizzy Gillepsie
-----------------------------------------
http://www.myspace.com/samuelzubicaray
Avatar de l’utilisateur
zubi
 
Messages: 2032
Inscrit le: 27 Sep 2006 12:06
Localisation: Rennes

Messagepar AllezAlainRockOn » 20 Déc 2008 01:04

Image

Pour >Minor Swing< par exemple
Artisanal mais gratos.
" L' Homme n'est kune rillettes ." ( Alain De Milly: Grand Philosophe et Poète Français )
/\ \_ /\ / /\/---♪-♫♫♪
Avatar de l’utilisateur
AllezAlainRockOn
 
Messages: 14046
Inscrit le: 21 Mars 2007 01:17
Localisation: Milly La Forêt

Messagepar AllezAlainRockOn » 20 Déc 2008 01:15

PS> C'est propre comme ça, Spatzo et guelda ! ? :evil:
Zub In ! Rock On ! :wink:
Artisanal mais gratos.
" L' Homme n'est kune rillettes ." ( Alain De Milly: Grand Philosophe et Poète Français )
/\ \_ /\ / /\/---♪-♫♫♪
Avatar de l’utilisateur
AllezAlainRockOn
 
Messages: 14046
Inscrit le: 21 Mars 2007 01:17
Localisation: Milly La Forêt

Messagepar jérémy » 16 Mai 2009 10:05

pour zubi :
peux tu me dire ou je peux avoir ton programme pour les arrangements ?
Avatar de l’utilisateur
jérémy
 
Messages: 145
Inscrit le: 05 Mai 2009 09:54

Messagepar zubi » 18 Mai 2009 21:52

je suis en train d'en faire un mieux,
tellement mieux que je vais le vendre ...ah ah

y aura une base de données de plus d'un million d'accord dedans
( j'ai embauché une centaine de développeur-guitariste chinois pour ce faire)

de toute façon je viendrai ici faire ma pub ;-)

soyez cool avec moi je serais bientôt MILLIONNAIRE ( tant pis pour toi michmich hihi comme tu dis)!!
J'ai mis toute ma vie pour savoir ce qu'il ne fallait pas jouer.
Dizzy Gillepsie
-----------------------------------------
http://www.myspace.com/samuelzubicaray
Avatar de l’utilisateur
zubi
 
Messages: 2032
Inscrit le: 27 Sep 2006 12:06
Localisation: Rennes

Messagepar lemanouchecbien » 18 Mai 2009 22:47

Ni compte pas trop il y aura probablement des nerds qui feront le meme mais en logiciel libre... :lol: :lol:
Bon par exemple moi j'adore les fraises, bon bah si j'bouffe 3 bassines de fraises en 1 heure ah bah j'choppe la chiasse hein, j'suis comme tout l'monde hein...
Avatar de l’utilisateur
lemanouchecbien
 
Messages: 2516
Inscrit le: 03 Nov 2008 23:30
Localisation: Third rock from the sun

Messagepar zubi » 18 Mai 2009 23:15

impossible, j'ai 30 ans d'avance technologique 8) :lol:
J'ai mis toute ma vie pour savoir ce qu'il ne fallait pas jouer.
Dizzy Gillepsie
-----------------------------------------
http://www.myspace.com/samuelzubicaray
Avatar de l’utilisateur
zubi
 
Messages: 2032
Inscrit le: 27 Sep 2006 12:06
Localisation: Rennes

Messagepar Montypy » 20 Juin 2009 14:58

zubi a écrit:impossible, j'ai 30 ans d'avance technologique 8) :lol:

Et déjà plus d'un mois de retard....
Alors, il vient ce logiciel improvisateur avec un million de chorus en mémoire ? :lol:
Le meilleur ami de Taz c'est...Django !
Avatar de l’utilisateur
Montypy
 
Messages: 6298
Inscrit le: 18 Juil 2006 15:28
Localisation: Genève

Messagepar zubi » 11 Juil 2009 14:39

Eb | Do7 | Fa-7 | Bb 7,5b sus 9b

avec le Bb comme contrainte pédale , et voilà le genre de truc que mon truc pondera:

---------------------------------------------------------
----8------5------4-------5----------------------------------
----7------5------5-------4----------------------------------
----5------5------6-------6----------------------------------
--------------------------------------------------------
----6------6------6-------6-----------------------------------

et hop une intro pour nuit de st germain !
J'ai mis toute ma vie pour savoir ce qu'il ne fallait pas jouer.
Dizzy Gillepsie
-----------------------------------------
http://www.myspace.com/samuelzubicaray
Avatar de l’utilisateur
zubi
 
Messages: 2032
Inscrit le: 27 Sep 2006 12:06
Localisation: Rennes

Messagepar zubi » 30 Juil 2009 20:15

c'est cool ce post ça me fait un endroit pour stocker mes accords ...

A9bsus4 A/G D-/F

-------------------------------------------------------------------------
-------------------------------------------------------------------------
-----3------------2--------------3------------------------------------------
-----3------------2--------------2------------------------------------------
-----5------------2--------------0------------------------------------------
-------------------------------------------------------------------------
--5------4----3--------2---1--------------------------------------------------
J'ai mis toute ma vie pour savoir ce qu'il ne fallait pas jouer.
Dizzy Gillepsie
-----------------------------------------
http://www.myspace.com/samuelzubicaray
Avatar de l’utilisateur
zubi
 
Messages: 2032
Inscrit le: 27 Sep 2006 12:06
Localisation: Rennes

Messagepar pascal.ch » 31 Oct 2009 00:54

zubi a écrit:c'est cool ce post ça me fait un endroit pour stocker mes accords ...

A9bsus4 A/G D-/F

-------------------------------------------------------------------------
-------------------------------------------------------------------------
-----3------------2--------------3------------------------------------------
-----3------------2--------------2------------------------------------------
-----5------------2--------------0------------------------------------------
-------------------------------------------------------------------------
--5------4----3--------2---1--------------------------------------------------



Il y a eu plusieurs gros bug qui ont fait perdre beaucoup de trésors de ce site ainsi que de gajdodrom :wink:
Avatar de l’utilisateur
pascal.ch
 
Messages: 6522
Inscrit le: 05 Fév 2006 17:28
Localisation: Gruyère Suisse

Messagepar pascal.ch » 18 Déc 2009 21:50

Une jolie que j'ai utiliser comme intro d'une de mes compos A faire dans un rythme libre style debut de ballade

G-6

arpege 2 x
Corde 6 case 3
Corde 5 x
Corde 4 case 2
Corde 3 case 3
Corde 2 case 3
Corde 1 x

D/ F# arpege 2x

Corde 6 case 2
Corde 5 x
Corde 4 case 0
Corde 3 case 2
Corde 2 case 3
Corde 1 x

D7 b9/A arpege 1x
Corde 6 case 5
Corde 5 x
Corde 4 case 4
Corde 3 case 5
Corde 2 case 4 et 6 liason
Corde 1 x

arpege G-6 2x comme le premier


Arpege C-6 arpege 1x

Corde 6 case 8
Corde 5 x
Corde 4 case 7
Corde 3 case 8
Corde 2 case 8 et liaison la 10 et sol re 8
Corde 1 x

Bb 6/9 1x arpege

Corde 6 case 6
Corde 5 x
Corde 4 case 5
Corde 3 case 5
Corde 2 case 6 et liaison la tierce majeur de la corde 3 case 7 laisser durée un peu
Corde 1 x

A5b5 arpege


Corde 6 case 5
Corde 5 case 6
Corde 4 case 5
Corde 3 case 6
Corde 2 x
Corde 1 x


C#o7 1 x arpege

Corde 6 x
Corde 5 case 4
Corde 4 case 5
Corde 3 case 3
Corde 2 case 5
Corde 1 x

Eo7 1 x arpege

Corde 6 x
Corde 5 case 7
Corde 4 case 8
Corde 3 case 4
Corde 2 case 8
Corde 1 x


Ces trois accords sont a la suite sans pause pour finir sur

C#o7 qui dure une mesure case 3
ensuite

Arpege 1 x de Db7 5b / Ab

Corde 6 case 4
Corde 5 x
Corde 4 case 4
Corde 3 case 5
Corde 2 case 3
Corde 1 x

et note finale D#5/A laisser duree 1 mesure


Corde 6 case 5
Corde 5 x
Corde 4 case 4
Corde 3 case 3
Corde 2 case 3
Corde 1 x

pas facile de l'ecrire chiffrer :roll:
Avatar de l’utilisateur
pascal.ch
 
Messages: 6522
Inscrit le: 05 Fév 2006 17:28
Localisation: Gruyère Suisse

Messagepar AllezAlainRockOn » 20 Mars 2010 19:08

Petit final jazz blues en B bémol majeur à swinguer >>>

6--6--6--6--10--10--10--6---6-6----
6--4--5--6----8----8---7--6---6-6----
5--5--6--7--10----9---8--5---5-5-----
5--5--5--5----9----8---7--5---4-5-----
---------------------------------------------
--------------------------------------------6-(x) Yéeaa... :P

Accords >>

BbM69 - Cm7 - Dbdim - Bb6 - G7 - D79 - F7139b - Bb96 - Ab713 - Bb69
Artisanal mais gratos.
" L' Homme n'est kune rillettes ." ( Alain De Milly: Grand Philosophe et Poète Français )
/\ \_ /\ / /\/---♪-♫♫♪
Avatar de l’utilisateur
AllezAlainRockOn
 
Messages: 14046
Inscrit le: 21 Mars 2007 01:17
Localisation: Milly La Forêt

Messagepar AllezAlainRockOn » 20 Mars 2010 19:10

Hello Zubi, ça boum ? Ca faisait une paye qu' j' avais pas posté là... :wink:
Artisanal mais gratos.
" L' Homme n'est kune rillettes ." ( Alain De Milly: Grand Philosophe et Poète Français )
/\ \_ /\ / /\/---♪-♫♫♪
Avatar de l’utilisateur
AllezAlainRockOn
 
Messages: 14046
Inscrit le: 21 Mars 2007 01:17
Localisation: Milly La Forêt

Messagepar AllezAlainRockOn » 20 Mars 2010 23:30

Rectif > Bb96 - Ab7913 - Bb69<

fin... bref... :roll:
Artisanal mais gratos.
" L' Homme n'est kune rillettes ." ( Alain De Milly: Grand Philosophe et Poète Français )
/\ \_ /\ / /\/---♪-♫♫♪
Avatar de l’utilisateur
AllezAlainRockOn
 
Messages: 14046
Inscrit le: 21 Mars 2007 01:17
Localisation: Milly La Forêt

Messagepar AllezAlainRockOn » 23 Mars 2010 23:41

--------------------------------------------------------------------------------------
0------0----1---2----2----2----3----3-----3----0----0----1-----1----1-------
2------2--------------4----------------5-----------2----------2----------0-------
2------2--------------5----------------4-----------3----------3----------2-------
3------3--------------x-----------------x-----------x-----------x----------3--------
3------3--------------5----------------5-----------3----------3----------3---------mélancolie... :(


Cmaj7 - % - A7 (sus2) - D7/A - G7 (sus2) - G7 (sus2-sus4) - C

( Lentement en arpégeant les accords c plus zoli...)

@+
Artisanal mais gratos.
" L' Homme n'est kune rillettes ." ( Alain De Milly: Grand Philosophe et Poète Français )
/\ \_ /\ / /\/---♪-♫♫♪
Avatar de l’utilisateur
AllezAlainRockOn
 
Messages: 14046
Inscrit le: 21 Mars 2007 01:17
Localisation: Milly La Forêt

Re: La foire aux accords

Messagepar Joli Gadjo » 24 Nov 2010 17:22

Image

Image
Image
-JG
Avatar de l’utilisateur
Joli Gadjo
 
Messages: 1310
Inscrit le: 14 Fév 2007 15:42

Re: La foire aux accords

Messagepar a.tubeman » 07 Fév 2011 16:32

voila je suis gaucher av les cordes a droite ,comme patrick saussois certain accords manouche me semble un peu dur a transcrire ,surtout ceux av le pouce pour les basses
si parmi vous certain ont une idée de la technique a patrick
merci denis
a.tubeman
 
Messages: 1
Inscrit le: 23 Juil 2010 14:22

PrécédentSuivant

Retour vers Théorie et technique



Qui est en ligne ?

Utilisateur(s) parcourant actuellement ce forum : Aucun utilisateur inscrit et 4 invité(s)